«Let it be» Пола Маккартни

Подборка аккордов в оригинальной тональности Александра Кобизского







Вступление: C   G  Аm  Аm/G  Fmaj

                      C  G  Fmaj Аm7  Dm/D  C

 

 

C                                G                           Аm       Аm/G           Fmaj

When I find myself in times of trouble, Mother Mary comes to me

C                                G              Fmaj Аm7  Dm/D C

Speaking words of wisdom, let it be

 

And in my hour of darkness, She is standing right in front of me

Speaking words of wisdom, Let it be

 

Am         G          F          C

Let it be, let it be, let it be, let it be

                                      G            Fmaj Аm7  Dm/D C

Whisper words of wisdom, let it be

 

And when the broken hearted people, Living in the world agree

There will be an answer, let it be

But though they may be parted, There is still a chance that they may see

There will be an answer, let it be

 

Let it be, let it be, let it be, let it be

There will be an answer, let it be

Let it be, let it be, let it be, let it be

Whisper words of wisdom, let it be

 

Проигрыш:

                                             F   C

|----5------3--1----0--------------------------|

|----6------5--3----1---3---1---0-------1---|

|--------------------------3---2---0-------0---|

|---------------------------------------2---2----|

|---------------------------------------3---3----|

|-------------------------------------------------I

 

 

Let it be, let it be, let it be, let it be

Whisper words of wisdom, let it be

 

And when the night is cloudy,

There is still a light that shines on me

Shine on till tomorrow, let it be

 

I wake up to the sound of music, Mother Mary comes to me

Speaking words of wisdom, let it be

 

Let it be, let it be, let it be, let it be

Whisper words of wisdom, let it be

 

Соло для концовки:             F   C

|----5------3--1----0--------------------------|

|----6------5--3----1---3---1---0-------1---|

|--------------------------3---2---0-------0---|

|---------------------------------------2---2----|

|---------------------------------------3---3----|

|-------------------------------------------------I

 

 

Подборка аккордов @ Александра Кобизского

http://guitar-shcool.io.ua







Обновлен 10 дек 2014. Создан 06 янв 2012